ISO-10303-21;
HEADER;
/* Generated by software containing ST-Developer
 * from STEP Tools, Inc. (www.steptools.com) 
 */

FILE_DESCRIPTION(
/* description */ (''),
/* implementation_level */ '2;1');

FILE_NAME(
/* name */ 'X:\\HendersonDraftingTeam\\SSpozetta\\Break Cap.stp',
/* time_stamp */ '2025-07-09T11:39:33+08:00',
/* author */ ('SSPOZETT'),
/* organization */ (''),
/* preprocessor_version */ 'ST-DEVELOPER v18.1',
/* originating_system */ 'AutoCAD Mechanical',
/* authorisation */ '');

FILE_SCHEMA (('AUTOMOTIVE_DESIGN { 1 0 10303 214 3 1 1 }'));
ENDSEC;

DATA;
#10=MECHANICAL_DESIGN_GEOMETRIC_PRESENTATION_REPRESENTATION('',(#14),#280);
#11=PRESENTATION_LAYER_ASSIGNMENT('0','0',(#15));
#12=SHAPE_REPRESENTATION_RELATIONSHIP('SRR','None',#286,#13);
#13=ADVANCED_BREP_SHAPE_REPRESENTATION('',(#15),#279);
#14=STYLED_ITEM('',(#295),#15);
#15=MANIFOLD_SOLID_BREP('1883',#156);
#16=PLANE('',#178);
#17=PLANE('',#179);
#18=SPHERICAL_SURFACE('',#167,5.);
#19=SPHERICAL_SURFACE('',#172,5.);
#20=SPHERICAL_SURFACE('',#174,5.);
#21=SPHERICAL_SURFACE('',#176,5.);
#22=FACE_OUTER_BOUND('',#32,.T.);
#23=FACE_OUTER_BOUND('',#33,.T.);
#24=FACE_OUTER_BOUND('',#34,.T.);
#25=FACE_OUTER_BOUND('',#35,.T.);
#26=FACE_OUTER_BOUND('',#36,.T.);
#27=FACE_OUTER_BOUND('',#37,.T.);
#28=FACE_OUTER_BOUND('',#38,.T.);
#29=FACE_OUTER_BOUND('',#39,.T.);
#30=FACE_OUTER_BOUND('',#40,.T.);
#31=FACE_OUTER_BOUND('',#41,.T.);
#32=EDGE_LOOP('',(#102,#103,#104,#105));
#33=EDGE_LOOP('',(#106,#107,#108,#109));
#34=EDGE_LOOP('',(#110,#111,#112,#113));
#35=EDGE_LOOP('',(#114,#115,#116));
#36=EDGE_LOOP('',(#117,#118,#119,#120));
#37=EDGE_LOOP('',(#121,#122,#123));
#38=EDGE_LOOP('',(#124,#125,#126));
#39=EDGE_LOOP('',(#127,#128,#129));
#40=EDGE_LOOP('',(#130,#131,#132,#133));
#41=EDGE_LOOP('',(#134,#135,#136,#137,#138,#139,#140,#141));
#42=LINE('',#240,#50);
#43=LINE('',#243,#51);
#44=LINE('',#248,#52);
#45=LINE('',#251,#53);
#46=LINE('',#256,#54);
#47=LINE('',#259,#55);
#48=LINE('',#266,#56);
#49=LINE('',#268,#57);
#50=VECTOR('',#186,1.);
#51=VECTOR('',#189,1.);
#52=VECTOR('',#194,1.);
#53=VECTOR('',#197,1.);
#54=VECTOR('',#202,1.);
#55=VECTOR('',#205,1.);
#56=VECTOR('',#214,1.);
#57=VECTOR('',#217,1.);
#58=CIRCLE('',#159,5.);
#59=CIRCLE('',#160,5.);
#60=CIRCLE('',#162,5.);
#61=CIRCLE('',#163,5.);
#62=CIRCLE('',#165,5.);
#63=CIRCLE('',#166,5.);
#64=CIRCLE('',#168,5.);
#65=CIRCLE('',#170,5.);
#66=CIRCLE('',#171,5.);
#67=CIRCLE('',#173,5.);
#68=CIRCLE('',#175,5.00000000000006);
#69=CIRCLE('',#177,5.00000000000006);
#70=VERTEX_POINT('',#236);
#71=VERTEX_POINT('',#237);
#72=VERTEX_POINT('',#239);
#73=VERTEX_POINT('',#241);
#74=VERTEX_POINT('',#245);
#75=VERTEX_POINT('',#247);
#76=VERTEX_POINT('',#249);
#77=VERTEX_POINT('',#253);
#78=VERTEX_POINT('',#255);
#79=VERTEX_POINT('',#257);
#80=VERTEX_POINT('',#263);
#81=VERTEX_POINT('',#265);
#82=EDGE_CURVE('',#70,#71,#58,.T.);
#83=EDGE_CURVE('',#72,#71,#42,.T.);
#84=EDGE_CURVE('',#72,#73,#59,.T.);
#85=EDGE_CURVE('',#73,#70,#43,.T.);
#86=EDGE_CURVE('',#73,#74,#60,.T.);
#87=EDGE_CURVE('',#75,#74,#44,.T.);
#88=EDGE_CURVE('',#75,#76,#61,.T.);
#89=EDGE_CURVE('',#76,#73,#45,.T.);
#90=EDGE_CURVE('',#76,#77,#62,.T.);
#91=EDGE_CURVE('',#78,#77,#46,.T.);
#92=EDGE_CURVE('',#78,#79,#63,.T.);
#93=EDGE_CURVE('',#79,#76,#47,.T.);
#94=EDGE_CURVE('',#77,#75,#64,.T.);
#95=EDGE_CURVE('',#79,#80,#65,.T.);
#96=EDGE_CURVE('',#81,#80,#48,.T.);
#97=EDGE_CURVE('',#81,#70,#66,.T.);
#98=EDGE_CURVE('',#70,#79,#49,.T.);
#99=EDGE_CURVE('',#80,#78,#67,.T.);
#100=EDGE_CURVE('',#74,#72,#68,.T.);
#101=EDGE_CURVE('',#71,#81,#69,.T.);
#102=ORIENTED_EDGE('',*,*,#82,.T.);
#103=ORIENTED_EDGE('',*,*,#83,.F.);
#104=ORIENTED_EDGE('',*,*,#84,.T.);
#105=ORIENTED_EDGE('',*,*,#85,.T.);
#106=ORIENTED_EDGE('',*,*,#86,.T.);
#107=ORIENTED_EDGE('',*,*,#87,.F.);
#108=ORIENTED_EDGE('',*,*,#88,.T.);
#109=ORIENTED_EDGE('',*,*,#89,.T.);
#110=ORIENTED_EDGE('',*,*,#90,.T.);
#111=ORIENTED_EDGE('',*,*,#91,.F.);
#112=ORIENTED_EDGE('',*,*,#92,.T.);
#113=ORIENTED_EDGE('',*,*,#93,.T.);
#114=ORIENTED_EDGE('',*,*,#90,.F.);
#115=ORIENTED_EDGE('',*,*,#88,.F.);
#116=ORIENTED_EDGE('',*,*,#94,.F.);
#117=ORIENTED_EDGE('',*,*,#95,.T.);
#118=ORIENTED_EDGE('',*,*,#96,.F.);
#119=ORIENTED_EDGE('',*,*,#97,.T.);
#120=ORIENTED_EDGE('',*,*,#98,.T.);
#121=ORIENTED_EDGE('',*,*,#95,.F.);
#122=ORIENTED_EDGE('',*,*,#92,.F.);
#123=ORIENTED_EDGE('',*,*,#99,.F.);
#124=ORIENTED_EDGE('',*,*,#86,.F.);
#125=ORIENTED_EDGE('',*,*,#84,.F.);
#126=ORIENTED_EDGE('',*,*,#100,.F.);
#127=ORIENTED_EDGE('',*,*,#82,.F.);
#128=ORIENTED_EDGE('',*,*,#97,.F.);
#129=ORIENTED_EDGE('',*,*,#101,.F.);
#130=ORIENTED_EDGE('',*,*,#85,.F.);
#131=ORIENTED_EDGE('',*,*,#89,.F.);
#132=ORIENTED_EDGE('',*,*,#93,.F.);
#133=ORIENTED_EDGE('',*,*,#98,.F.);
#134=ORIENTED_EDGE('',*,*,#87,.T.);
#135=ORIENTED_EDGE('',*,*,#100,.T.);
#136=ORIENTED_EDGE('',*,*,#83,.T.);
#137=ORIENTED_EDGE('',*,*,#101,.T.);
#138=ORIENTED_EDGE('',*,*,#96,.T.);
#139=ORIENTED_EDGE('',*,*,#99,.T.);
#140=ORIENTED_EDGE('',*,*,#91,.T.);
#141=ORIENTED_EDGE('',*,*,#94,.T.);
#142=CYLINDRICAL_SURFACE('',#158,5.);
#143=CYLINDRICAL_SURFACE('',#161,5.);
#144=CYLINDRICAL_SURFACE('',#164,5.);
#145=CYLINDRICAL_SURFACE('',#169,5.);
#146=ADVANCED_FACE('',(#22),#142,.T.);
#147=ADVANCED_FACE('',(#23),#143,.T.);
#148=ADVANCED_FACE('',(#24),#144,.T.);
#149=ADVANCED_FACE('',(#25),#18,.T.);
#150=ADVANCED_FACE('',(#26),#145,.T.);
#151=ADVANCED_FACE('',(#27),#19,.T.);
#152=ADVANCED_FACE('',(#28),#20,.T.);
#153=ADVANCED_FACE('',(#29),#21,.T.);
#154=ADVANCED_FACE('',(#30),#16,.T.);
#155=ADVANCED_FACE('',(#31),#17,.F.);
#156=CLOSED_SHELL('',(#146,#147,#148,#149,#150,#151,#152,#153,#154,#155));
#157=AXIS2_PLACEMENT_3D('placement',#234,#180,#181);
#158=AXIS2_PLACEMENT_3D('',#235,#182,#183);
#159=AXIS2_PLACEMENT_3D('',#238,#184,#185);
#160=AXIS2_PLACEMENT_3D('',#242,#187,#188);
#161=AXIS2_PLACEMENT_3D('',#244,#190,#191);
#162=AXIS2_PLACEMENT_3D('',#246,#192,#193);
#163=AXIS2_PLACEMENT_3D('',#250,#195,#196);
#164=AXIS2_PLACEMENT_3D('',#252,#198,#199);
#165=AXIS2_PLACEMENT_3D('',#254,#200,#201);
#166=AXIS2_PLACEMENT_3D('',#258,#203,#204);
#167=AXIS2_PLACEMENT_3D('',#260,#206,#207);
#168=AXIS2_PLACEMENT_3D('',#261,#208,#209);
#169=AXIS2_PLACEMENT_3D('',#262,#210,#211);
#170=AXIS2_PLACEMENT_3D('',#264,#212,#213);
#171=AXIS2_PLACEMENT_3D('',#267,#215,#216);
#172=AXIS2_PLACEMENT_3D('',#269,#218,#219);
#173=AXIS2_PLACEMENT_3D('',#270,#220,#221);
#174=AXIS2_PLACEMENT_3D('',#271,#222,#223);
#175=AXIS2_PLACEMENT_3D('',#272,#224,#225);
#176=AXIS2_PLACEMENT_3D('',#273,#226,#227);
#177=AXIS2_PLACEMENT_3D('',#274,#228,#229);
#178=AXIS2_PLACEMENT_3D('',#275,#230,#231);
#179=AXIS2_PLACEMENT_3D('',#276,#232,#233);
#180=DIRECTION('axis',(0.,0.,1.));
#181=DIRECTION('refdir',(1.,0.,0.));
#182=DIRECTION('center_axis',(0.,1.,0.));
#183=DIRECTION('ref_axis',(0.707106781186548,0.,0.707106781186548));
#184=DIRECTION('center_axis',(0.,1.,0.));
#185=DIRECTION('ref_axis',(0.,0.,1.));
#186=DIRECTION('',(0.,-1.,0.));
#187=DIRECTION('center_axis',(0.,-1.,0.));
#188=DIRECTION('ref_axis',(1.,0.,0.));
#189=DIRECTION('',(0.,-1.,0.));
#190=DIRECTION('center_axis',(-1.,0.,0.));
#191=DIRECTION('ref_axis',(0.,0.707106781186548,0.707106781186548));
#192=DIRECTION('center_axis',(-1.,0.,0.));
#193=DIRECTION('ref_axis',(0.,0.,1.));
#194=DIRECTION('',(1.,0.,0.));
#195=DIRECTION('center_axis',(1.,0.,0.));
#196=DIRECTION('ref_axis',(0.,1.,0.));
#197=DIRECTION('',(1.,0.,0.));
#198=DIRECTION('center_axis',(0.,-1.,0.));
#199=DIRECTION('ref_axis',(-0.707106781186548,0.,0.707106781186548));
#200=DIRECTION('center_axis',(0.,-1.,0.));
#201=DIRECTION('ref_axis',(0.,0.,1.));
#202=DIRECTION('',(0.,1.,0.));
#203=DIRECTION('center_axis',(0.,1.,0.));
#204=DIRECTION('ref_axis',(-1.,0.,0.));
#205=DIRECTION('',(0.,1.,0.));
#206=DIRECTION('center_axis',(-0.408248290463865,-0.816496580927725,0.408248290463863));
#207=DIRECTION('ref_axis',(-0.577350269189627,0.577350269189627,0.577350269189624));
#208=DIRECTION('center_axis',(0.,0.,-1.));
#209=DIRECTION('ref_axis',(-1.,0.,0.));
#210=DIRECTION('center_axis',(1.,0.,0.));
#211=DIRECTION('ref_axis',(0.,-0.707106781186548,0.707106781186548));
#212=DIRECTION('center_axis',(1.,0.,0.));
#213=DIRECTION('ref_axis',(0.,0.,1.));
#214=DIRECTION('',(-1.,0.,0.));
#215=DIRECTION('center_axis',(-1.,0.,0.));
#216=DIRECTION('ref_axis',(0.,-1.,0.));
#217=DIRECTION('',(-1.,0.,0.));
#218=DIRECTION('center_axis',(0.408248290463861,-0.816496580927727,-0.408248290463864));
#219=DIRECTION('ref_axis',(-0.577350269189627,-0.577350269189627,0.577350269189624));
#220=DIRECTION('center_axis',(0.,0.,-1.));
#221=DIRECTION('ref_axis',(0.,-1.,0.));
#222=DIRECTION('center_axis',(-0.81649658092772,0.408248290463877,0.408248290463861));
#223=DIRECTION('ref_axis',(0.577350269189629,0.577350269189635,0.577350269189613));
#224=DIRECTION('center_axis',(0.,0.,-1.));
#225=DIRECTION('ref_axis',(1.13686837721615E-14,1.,0.));
#226=DIRECTION('center_axis',(-0.81649658092772,-0.408248290463877,0.408248290463861));
#227=DIRECTION('ref_axis',(0.577350269189629,-0.577350269189635,0.577350269189613));
#228=DIRECTION('center_axis',(0.,0.,-1.));
#229=DIRECTION('ref_axis',(1.,-1.13686837721615E-14,0.));
#230=DIRECTION('center_axis',(0.,0.,1.));
#231=DIRECTION('ref_axis',(1.,0.,0.));
#232=DIRECTION('center_axis',(0.,0.,1.));
#233=DIRECTION('ref_axis',(1.,0.,0.));
#234=CARTESIAN_POINT('',(0.,0.,0.));
#235=CARTESIAN_POINT('Origin',(302.109789659778,210.610034321186,0.));
#236=CARTESIAN_POINT('',(302.109789659778,203.610034321186,5.));
#237=CARTESIAN_POINT('',(307.109789659778,203.610034321186,0.));
#238=CARTESIAN_POINT('Origin',(302.109789659778,203.610034321186,0.));
#239=CARTESIAN_POINT('',(307.109789659778,231.610034321186,0.));
#240=CARTESIAN_POINT('',(307.109789659778,231.610034321186,0.));
#241=CARTESIAN_POINT('',(302.109789659778,231.610034321186,5.));
#242=CARTESIAN_POINT('Origin',(302.109789659778,231.610034321186,0.));
#243=CARTESIAN_POINT('',(302.109789659778,210.610034321186,5.));
#244=CARTESIAN_POINT('Origin',(290.859789659778,231.610034321186,0.));
#245=CARTESIAN_POINT('',(302.109789659778,236.610034321186,0.));
#246=CARTESIAN_POINT('Origin',(302.109789659778,231.610034321186,0.));
#247=CARTESIAN_POINT('',(257.109789659778,236.610034321186,0.));
#248=CARTESIAN_POINT('',(257.109789659778,236.610034321186,0.));
#249=CARTESIAN_POINT('',(257.109789659778,231.610034321186,5.));
#250=CARTESIAN_POINT('Origin',(257.109789659778,231.610034321186,0.));
#251=CARTESIAN_POINT('',(290.859789659778,231.610034321186,5.));
#252=CARTESIAN_POINT('Origin',(257.109789659778,224.610034321186,0.));
#253=CARTESIAN_POINT('',(252.109789659778,231.610034321186,0.));
#254=CARTESIAN_POINT('Origin',(257.109789659778,231.610034321186,0.));
#255=CARTESIAN_POINT('',(252.109789659778,203.610034321186,0.));
#256=CARTESIAN_POINT('',(252.109789659778,203.610034321186,0.));
#257=CARTESIAN_POINT('',(257.109789659778,203.610034321186,5.));
#258=CARTESIAN_POINT('Origin',(257.109789659778,203.610034321186,0.));
#259=CARTESIAN_POINT('',(257.109789659778,224.610034321186,5.));
#260=CARTESIAN_POINT('Origin',(257.109789659778,231.610034321186,0.));
#261=CARTESIAN_POINT('Origin',(257.109789659778,231.610034321186,0.));
#262=CARTESIAN_POINT('Origin',(268.359789659778,203.610034321186,0.));
#263=CARTESIAN_POINT('',(257.109789659778,198.610034321186,0.));
#264=CARTESIAN_POINT('Origin',(257.109789659778,203.610034321186,0.));
#265=CARTESIAN_POINT('',(302.109789659778,198.610034321186,0.));
#266=CARTESIAN_POINT('',(302.109789659778,198.610034321186,0.));
#267=CARTESIAN_POINT('Origin',(302.109789659778,203.610034321186,0.));
#268=CARTESIAN_POINT('',(268.359789659778,203.610034321186,5.));
#269=CARTESIAN_POINT('Origin',(257.109789659778,203.610034321186,0.));
#270=CARTESIAN_POINT('Origin',(257.109789659778,203.610034321186,0.));
#271=CARTESIAN_POINT('Origin',(302.109789659778,231.610034321186,0.));
#272=CARTESIAN_POINT('Origin',(302.109789659778,231.610034321186,0.));
#273=CARTESIAN_POINT('Origin',(302.109789659778,203.610034321186,0.));
#274=CARTESIAN_POINT('Origin',(302.109789659778,203.610034321186,0.));
#275=CARTESIAN_POINT('Origin',(279.609789659778,217.610034321186,5.));
#276=CARTESIAN_POINT('Origin',(279.609789659778,217.610034321186,0.));
#277=UNCERTAINTY_MEASURE_WITH_UNIT(LENGTH_MEASURE(0.01),#281,
'DISTANCE_ACCURACY_VALUE',
'Maximum model space distance between geometric entities at asserted c
onnectivities');
#278=UNCERTAINTY_MEASURE_WITH_UNIT(LENGTH_MEASURE(0.01),#281,
'DISTANCE_ACCURACY_VALUE',
'Maximum model space distance between geometric entities at asserted c
onnectivities');
#279=(
GEOMETRIC_REPRESENTATION_CONTEXT(3)
GLOBAL_UNCERTAINTY_ASSIGNED_CONTEXT((#277))
GLOBAL_UNIT_ASSIGNED_CONTEXT((#281,#282,#283))
REPRESENTATION_CONTEXT('','3D')
);
#280=(
GEOMETRIC_REPRESENTATION_CONTEXT(3)
GLOBAL_UNCERTAINTY_ASSIGNED_CONTEXT((#278))
GLOBAL_UNIT_ASSIGNED_CONTEXT((#281,#282,#283))
REPRESENTATION_CONTEXT('','3D')
);
#281=(
LENGTH_UNIT()
NAMED_UNIT(*)
SI_UNIT(.MILLI.,.METRE.)
);
#282=(
NAMED_UNIT(*)
PLANE_ANGLE_UNIT()
SI_UNIT($,.RADIAN.)
);
#283=(
NAMED_UNIT(*)
SI_UNIT($,.STERADIAN.)
SOLID_ANGLE_UNIT()
);
#284=SHAPE_DEFINITION_REPRESENTATION(#285,#286);
#285=PRODUCT_DEFINITION_SHAPE('',$,#288);
#286=SHAPE_REPRESENTATION('',(#157),#279);
#287=PRODUCT_DEFINITION_CONTEXT('part definition',#292,'design');
#288=PRODUCT_DEFINITION('Product','Product',#289,#287);
#289=PRODUCT_DEFINITION_FORMATION('',$,#294);
#290=PRODUCT_RELATED_PRODUCT_CATEGORY('Product','Product',(#294));
#291=APPLICATION_PROTOCOL_DEFINITION('international standard',
'automotive_design',2009,#292);
#292=APPLICATION_CONTEXT(
'Core Data for Automotive Mechanical Design Process');
#293=PRODUCT_CONTEXT('part definition',#292,'mechanical');
#294=PRODUCT('Product','Product',$,(#293));
#295=PRESENTATION_STYLE_ASSIGNMENT((#296));
#296=SURFACE_STYLE_USAGE(.BOTH.,#297);
#297=SURFACE_SIDE_STYLE('',(#298));
#298=SURFACE_STYLE_FILL_AREA(#299);
#299=FILL_AREA_STYLE('',(#300));
#300=FILL_AREA_STYLE_COLOUR('',#301);
#301=COLOUR_RGB('',1.,1.,1.);
ENDSEC;
END-ISO-10303-21;
